TIERRA GITANA
(Capo on 2nd fret)

Intro:  Play 4 times

--------------------------------
--------------------------------
6--6-7-6-7-6-7-6-7-6-7-6--
6-------------------------------
4------------------------------
--------------------------------


Fm
-------------------------------------------------------------------------------------------------------
-------------------------------------------------------------------------------------------------------
-------------------------------------------------------------------------------------------------------
------4-h-5-p-4-h-5-p-4--------------4-p-2-h-4-p-2--------2-p-0-h-2-0------------------
---2--------------------------------2-----------------------------2----------------------------------
0--------------------------------0-----------------------------0-------------------------------------


D
-------------------------------------------------------------------------------------------------------
-------------------------------------------------------------------------------------------------------
-------------------------------------------------------------------------------------------------------
----6-p-2-h-6-p-2----------4-p-2-h-4-p-2---------2-------------------------------------------
--7-------------------------7---------------------------7-----5-h-7-p-5--------------------
7------------------------7----------------------------7------------------------------------------------


C										    F#7
----------------------------------------------------------------------------------------------------------------
----------------------------------------------------------------------------------------------------------------
----------------------------------------------------------------------------------------------4-h-7-p-4-h-5
--------4-p-2-h-p-4--------2-h-4-p-2--------------------------------------------------6-----------------
--5--------------------------5--------------5----5-p-4-h-5-h-7-p-5-p-4-h-5-p-4---4----------------
5--------------------------5----------------------------------------------------------------------------------

(play this section 2 times)


D7 (add9)

NOTE:  * means to pluck these notes- donŐt strum them.

*                                   *
4----4---2----2----------4----4---2-----2---
5----5---------5----------5----5---------5---
-----5---------5----------------5---------5--
-----x---------4----------------x---------4---
5----5--------5----------5-----5---------5---
-----x---------x----------------x---------x---

E7

*                                   *
5---5------4-----4--------5---5-----4-----4------
-----3-----3-----3-------------3-----3-----3------
-----4-----4-----4-------------4-----4-----4------
2---2-----2-----2---------2---2-----2-----2-------
------------------------------------------------------
------------------------------------------------------

D                                                            C#7
*
4----4---2----2-----------------------------------------------------------
5----5---------5----------------------------------------------------------
-----5---------5---------------------------------------4-h-7-p-4-h-6--
-----x---------4------------------------------------6----------------------
5----5--------5-------5--4--5--7--5--4--5---4--------------------------
-----x---------x------------------------------------------------------------


From this point on the song, the rhythm guitar goes into a progression of:  

F#m / / /
E / / /
A / / /
D / / /
E D C#7 /

with the solo playing in the background (2 times).  Then the little bridge goes:

C#7 / / /
C#7 / / /
E / / /
E / / /

played twice.

And from there it's pretty much the same.


CHORDS: C#7: x43424 F#m: 244222 E: 776x5x / xx2452 D: 554232 A: 577655 (Music transcribed by Kelly Wing, MN, USA)