PENA PENITA
Capos:  See below

Intro: Capo on 5th fret, play 4 times

Am
|(5)------------------------------------------------------------------|
|(5)------------------------------------------------------------------|
|(5)-------------------------------------s-7-7-s---------------------|
|(7)-----7-7-7-7-7-s-9-9-9-9-s-10------------10-s-9-9-s-7----|
|(7)------------------------------------------------------------------|
|(5)--5--------------------------------------------------------------|

Gm7
|----------------------------------------------------------------------|
|----------------------------------------------------------------------|
|----------------------------------------------------------------------|
|-----5-----5--5--5-h-7--7--7-s-9-9-s-10-10-s-9-9-7-7-7-s-5-|
|----------------------------------------------------------------------|
|----------------------------------------------------------------------|

Am                                         Gm7
Yo vi, yo vi llorar a un gitano.


Un gitano!

                          Am
Lo vi llorar de tristeza.

                                         Gm7
Por m no me da ese hombre.


Que a ese hombre

                             Am
Lo vi llorar de tristeza.

                                Gm7
Va tirando por la calle

                                      Am
Como un pobre vagabundo.

                                          Gm7
Que pena me da ese hombre.


Que a ese hombre!

                         Am
Lo vi llorar de tristeza.

                 Gm7
Pena penita,

                Am
Pena penita,

                 Gm7
Pena penita,

                           Am
Que (ya) lo siento yo.


CHORDS and CAPOS: Guitar 1 (Tonino): Capo on 5th fret Am: x 7 7 9 10 8 Gm7: x55767 Guitar 2: Capo on 3rd fret Am: 577555 Gm7: 353463 (Music transcribed by Kelly Wing, MN, USA)