NO VIVIRÉ
(Capo on 6th fret)

(Lyrics are uncertain)

(Note:  In intro, although some of the spacing may look even, all notes are dyads
and should be played simultaneously.)

Intro:

------------------------------------------------------------------------
6--7--9----11--9----7--6--------6--7--9---11---9---7--6---------
6--8--10--11--10---8--6--------6--8--10--11--10--8--6--------
------------------------------------------------------------------------
------------------------------------------------------------------------
------------------------------------------------------------------------

                                                                                                 B
---------------------------------------------------------------------------
6--7--9---11--9------------------11---9----11--7--6--9--s--7--s--6--
6--8--10--11---10---------------11---10--11--8--6--8-----8-----6--
---------------------------------------------------------------------------
---------------------------------------------------------------------------
---------------------------------------------------------------------------

                                                     Bbm
-----------------------------------------------------------------------
6--7--9----11--9----7--6--------6--7--9---11---9---7--6--------
6--8--10--11--10---8--6--------6--8--10--11--10--8---6------
-----------------------------------------------------------------------
-----------------------------------------------------------------------
-----------------------------------------------------------------------

                                                                                                     B
-----------------------------------------------------------------------------
6--7--9----11--9---------------11---9----11--7--6--9--s--7--s--6---
6--8--10--11--10--------------11---10---11--8--6--8-----8-----6--
---------------------------------------------------------------------------
---------------------------------------------------------------------------
---------------------------------------------------------------------------

                                                  Bbm
--------------------------------------------------------------------------
9----7---9----9----7----6-------------------9----7---9---9---7---6---
10---8--10--10---8----6------------------10---8---10--10--8---6---
--------------------------------------------------------------------------
--------------------------------------------------------------------------
---------------------------------------------------------------------------

Bbm
No viviré

                           B
Si me falta su amor 

Ebm                                               Bbm
Cunto a ti, ser feliz y nada más

(Chorus:)

                       B
Somos amigue-ue-ue-ue  (somos amigos)

                                  Bbm
Somos lo que tengan de signe (?)

(repeat)

Yo que quiero yo de ti, 
Yo que quiero yo de ti,
Yo que quiero yo de ti, de ti, de ti, 

                       B
Me falta tu amor.

(repeat)

                                         Bbm
No quiero perder su amor 


No viviré que el amor no se acaba. 


Cunto a ti, ser feliz y nada más 

(chorus)

(intro)

Yo seré feliz, no quiero perderte.
Nunca vivir sin ti.
No digas más, lo mismo me encuentra.
Ser feliz, viviré y nada más.

(chorus)


CHORDS: B: 7998777 Bbm: 688666 Ebm: x68876 (Transcribed by Kelly Wing, MN, USA)