LA RUMBA DE NICOLÁS
(Capo on 2nd fret)

Intro:

16--16--16--16--16--16--16--16--12--12--12--12
16--16--16--16--16--16--16--16--12--12--12--12
----------------------------------------------------------
----------------------------------------------------------
----------------------------------------------------------
----------------------------------------------------------

11--11--11--11--11--11--11--11--12--12--12--12
11--11--11--11--11--11--11--11--12--12--12--12
----------------------------------------------------------
----------------------------------------------------------
----------------------------------------------------------
----------------------------------------------------------


C#m
Cuando nosotros cantemos

                                           A
En este mundo muy bueno

                                          B                                  G#m7
Queremos que la gente se levanta para bailar.

C#m
Cuando nosotros cantemos

                                            A
En este mundo muy bueno

                                         B                                 G#m7
Queremos que la gente se levanta para bailar.

Para bailar...

          C#m
Bamboleo Djobi

            B
Bamboleo Djoba

G#m7                                            C#m
Así se canta la rumba de Nicolás

          C#m
Bamboleo Djobi

            B
Bamboleo Djoba

G#m7                                            C#m
Así se canta la rumba de Nicolás

                F#m
De Nicolás

       G#m7
Sí, sí

C#m
De Nicolás

               F#m
De Nicolás

       G#m7
Sí, sí

C#m
De Nicolás


CHORDS: C#m: x46654 A: 577655 B: 799877 G#: 466444 G#m7: 464544 / 464574 F#m: 244222 (Music Transcribed by Kelly Wing, USA)