MOOREA
(Capo on 2nd fret)


(G#m)                                                          Ebm
|7---9---7---9---7---7---9----7------------------|---6---7---6---7---6---6---7----6------------------|
|9---9---9---9---9---9---9----9------------------|---8---8---8---8---8---8---8----8------------------|
|8---8---8---8---8---8---8----8------------------|---6---6---6---6---6---6---6----6------------------|
|----------------------------------------------------|-------------------------------------------------------|
|----------------------------------------------------|6-----------------------------------------------------|
|----------------------------------------------------|-------------------------------------------------------|


F#m                                                            C#m
|---5---7---5---7---5---5---7----5------------------|---4---5---4---5---4---4---5----4------------------|
|---7---7---7---7---7---7---7----7------------------|---6---6---6---6---6---6---6----6------------------|
|---6---6---6---6---6---6---6----6------------------|---4---4---4---4---4---4---4----4------------------|
|-------------------------------------------------------|-------------------------------------------------------|
|-------------------------------------------------------|4-----------------------------------------------------|
|2-----------------------------------------------------|-------------------------------------------------------|


D                                                                   Bm
|----5---7---5---7---5---5----7---5--------------|-----7---9---7---9---7---7---9---7--------------|
|----7---7---7---7---7---7----7---7--------------|-----9---9---9---9---9---9---9---9--------------|
|----7---7---7---7---7---7----7---7--------------|-----9---9---9---9---9---9---9---9--------------|
|----------------------------------------------------|----------------------------------------------------|
|5---------------------------------------------------|2--------------------------------------------------|
|----------------------------------------------------|----------------------------------------------------|


Fo7                                                              C#7
|-----7---9---7---9---7---7---9---7--------------|---9---10---9---10---9---9---10---9---------------|
|-----9---9---9---9---9---9---9---9--------------|---9----9----9---9----9---9----9---9---------------|
|-----9---9---9---9---9---9---9---9--------------|---10--10--10--10--10--10--10--10--------------|
|----------------------------------------------------|-------------------------------------------------------|
|--8-------------------------------------------------|-------------------------------------------------------|
|----------------------------------------------------|10----------------------------------------------------|


G#m                                                             Ebm
|11--11----------------------------------9---------|-11-11--12---14--------------------------------|
|---------12--11--12--9---9--11--12------------|----------------------11---------------------------|
|----------------------------------------------------|----------------------------------------------------|
|----------------------------------------------------|----------------------------------------------------|
|----------------------------------------------------|----------------------------------------------------|
|----------------------------------------------------|----------------------------------------------------|


F#m                                                            C#m
|9--9-----------------------------------------------|-9--9----10--12----------------------------------|
|--------10--9--10-------------------9--10--12--|----------------------9--9------------9-9-s-10-s-|
|----------------------11-11-11-11---------------|-------------------------------11-11--------------|
|----------------------------------------------------|----------------------------------------------------|
|----------------------------------------------------|----------------------------------------------------|
|----------------------------------------------------|----------------------------------------------------|


D                                                                   Bm
|----------------------------------------------------|-----------------------------10--9--9-------------|
|-9------9--10--12--s--14----9--10--12--------|-10--s-9------9--10--12--------------12--------|
|----11---------------------------------------------|-----------11--------------------------------------|
|----------------------------------------------------|----------------------------------------------------|
|----------------------------------------------------|----------------------------------------------------|
|----------------------------------------------------|----------------------------------------------------|


Fo7                                                              C#7
|----------------------------------------------------|----------------------------------------------------|
|10-10-10-9--9-10-p-9------10-p-9-----------|9t-10t-11t-9-9--------9----------9-10-11------|
|---------------------------11-----------11--------|------------------10-11--10--11-----------------|
|----------------------------------------------------|----------------------------------------------------|
|----------------------------------------------------|----------------------------------------------------|
|----------------------------------------------------|----------------------------------------------------|


G#m                                                             Ebm
|11-(11)-------------------------------------9-----|-11----11-12-11---------------------------------|
|---------12--11--12--9---9--11--12------------|--------------------s-12---------9-10-12--------|
|----------------------------------------------------|------------------------------11-------------------|
|----------------------------------------------------|----------------------------------------------------|
|----------------------------------------------------|----------------------------------------------------|
|----------------------------------------------------|----------------------------------------------------|


F#m                                           C#m
|9--9---------------------------------|----------------9~10~12~10~----------------------------------------|
|------10-9-10----------------------|---9~10~12~---------------12~10~9~10s1210s12--9h10p9--10|
|-----------------11-11--------------|11~---------------------------------------------------------------11--|
|--------------------------------------|-------------------------------------------------------------------------|
|--------------------------------------|-------------------------------------------------------------------------|
|--------------------------------------|-------------------------------------------------------------------------|


D                                                                   Bm
|----------------------------------------------------|----------------------------------------------------|
|-------9-10--------10-----------------------------|----------------------------------------------------|
|----------------11---------------------------------|----------------------------------------------------|
|----------------------------------------------------|----------------------------------------------------|
|----------------------------------------------------|----------------------------------------------------|
|----------------------------------------------------|----------------------------------------------------|


CHORDS: G#m: 244222 Ebm: x68876 F#m: 244222 C#m: x46654 D: x54232 Bm: x24432 Fo7: xx3434 C#7: x43423 Obviously there is more to the song. If anyone would like to help me finish it, that would be great! (Music transcribed by Kelly Wing, MN, USA)