MADRE MÍA
Capos:  See below.


Intro (capo on 5th fret for intro):
 
     E
-----------------------------------------------------------------------------------
-----------------------------------------------------------------------------------
-----------------------------------------------------------------------------------
---------------9-h-10-p-9-----7-p-6----------------10-p-8-h-10-p-8-s-7-
5-h-7-h-8-----------------------------8-p-7-----------------------------------
5-(let ring)---------------------------------------------------------------------


                    Dm                                                            A
-----------------------------------------------------------------------------------
-----------------------------------------------------------------------------------
-----------------------------------------------------------------------------------
--------------5-h-7-------7---6-h-7-p-6--------------------------------------
5-h-7-h-8-----------------------------------8-p-7-p-5------------------------
--------------------------------------------------------------9-p-5--------------


     E
---------------------------------------------------------------------
---------------------------------------------------------------------
---------------------------------------------------------------------
---------------9-h-10-p-9-----7-p-6---------------6-h-7-h-9
5-h-7-h-8-----------------------------8-p-7-h-8---------------
5-(let ring)------------------------------------------------------


                    Dm                                                            A           
-----------------------------------------------------------------------------------
-----------------------------------------------------------------------------------
-----------------------------------------------------------------------------------
--------------5-h-7-------7---6-h-7-p-6--------------------------------------
5-h-7-h-8-----------------------------------8-p-7-p-5------------------------
--------------------------------------------------------------9-p-5--------------


Chords for rest of intro:


A / F / A / F / B / Am / C / B  / Bb* / Am / G / F / E / A

  
A (Amaj7)                 F
Yo me encuentro solito

                 A                  F
Si no te tengo a mi lado

                 B                Am
Y ahora que no vivo

                      C                 B
Porque sin ti me muero
           
               Bb                  Am
Madre mía, madre mía

               G                     F               E
Madre mía, madre mía de mi alma


(repeat chorus)


(intro)

                A                 F
Madre mía, de mi alma
           
                A                 F
No te vayas de mi vera
           
                     B             Am
Porque sin ti no vivo

                    C             B
Muchas penas yo tengo
           

         Bb                 Am
No vivo, no vivo


(chorus)


CHORDS: No capo 2nd fret 5th fret E: x76454 x22454 x5777x Dm: x57765 x57765 x57765 A: 577655 542225 577655 F: 133211 x87565 887565 B: x24442 x24442 799877 Am: x02210 577555 577555 C: 332010 x35552 875558 Bb: x13331 688766 *68875x G: 355433 355433 xx5787 Amaj7: - 5x2654 - NOTES ON CHORDS AND PLAYING: Tonino's and Canut's capos are on the 5th fret. Patchaï's is on the 2nd fret. Paco's is open. Paco strums a light rhythm, while Canut and Tonino are playing arpeggios. If you are playing MADRE MÍA unaccompanied, use the 5th fret capo. (Music and lyrics transcribed by Kelly Wing, MN, USA)