Los Peces En El Río
Capo on 2nd fret

Intro:

-------------
-------------
-------------
-------------
-------------
2---4---6---


Bm                                      F#
La Vir-gen se      está       peinando
------------------------------------------------------------------
------------3-------------3-----------------2---------------2---
--------4-------------4-----------------3---------------3-------
----4-------------4-----------------4---------------4-----------
2-------------2--------------------------------------------------
---------------------------------2---------------2---------------


F#                                            Bm
Entre        cortina      y      cortina
--------------------------------------------------------------------
------------2---------------2-----------------3--------------3----
--------3---------------3-----------------4--------------4--------
----4---------------4-----------------4--------------4------------
-----------------------------------2--------------2----------------
2---------------2--------------------------------------------------

Bm                                       F#
Sus       cabellos son de     oro       
------------------------------------------------------------------
------------3-------------3-----------------2---------------2---
--------4-------------4-----------------3---------------3-------
----4-------------4-----------------4---------------4-----------
2-------------2--------------------------------------------------
---------------------------------2---------------2---------------


G7                G7/A               D                        F#            Bm                Bm
El peine        de plata        fi-                                          na        
------------6----------------6-------------2------------------------------------------2--
--------5----------------5--------------3-------------------2----------------3-------3--
----6----------------6-----------------------------------3----------------4----------4--
4----------------2-------------------4---------------4----------------4-------------4---
----------------------------------5---------------------------------2----------------2---
----------------------------------------------------2-------------------------------------

              Bm
Pero mira como beben

                             F#(F#7)
Los peces en el río


Pero mira como beben         

                                Bm
Por ver al Dios nacido

Bm
Beben y beben

                          F#(F#7)
Y vuelven a beber


Los peces en el río

                              Bm
Por ver al Dios nacer

Bm                       F#(F#7) 
La Virgen está lavando

                                Bm
Y el romero tendiendo

Bm                       F#(F#7) 
Los angelitos cantando

                                Bm
Y el romero floreciendo


CHORDS: Bm: x24432 F#: 244322 F#7: 244352 G7: x24656 G7/A: x22656 D: x54232 (Lyrics and music transcribed by Kelly Wing, MN, USA)