Igual Se Entonces IGUAL SE ENTONCES
(Capo on 2)

		    A		  Bm		  	           A                   Bm
------------------------------------------------------------------------------------------------
------------------------------------------------------------------------------------------------
7 --7 ------------------------------------------7--7------------------------------------------
--------11--11 s--7----7-------7--9--9---------------11--11-s--7-----7-------7--9--9---
------------------------------9------------------------------------------------9---------------
------------------------------------------------------------------------------------------------

		    A		  Bm		  	           A                   Bm
----------------------------------------------------------------------------------------------
----------------------------------------------------------------------------------------------
7 --7 ------------------------------------------7--7----------------------------------------
--------11--11 s--7----7-------7--9--9---------------11--11-s--7--7-------------------
------------------------------9-------------------------------------------------------------
-----------------------------------------------------------------------------10--9--7------


*Bm7add9
Bm (Bm/D)
S verdad que t me quieres

                   Em (Em/G)              
Come te quiero

                                        F#7              
La verdad que yo te quiero

               Bm
Aia aiaa

Bm (Bm/D)
S verdad que t me quieres
              
Em (Em/G)              
Como te quiero
              
                                        F#7              
La verdad de mi tormenta
            
               Bm
Aia aiaa

(Coro:)
              
                     Em (Em/G)
Igual se entonces

                                                 Bm (Bm/D)    
Yo quiero que me comprendas

                                            F#7
Porque ya mi puerta abierta

                                              Bm7
No quiero que marches de mi

(repeat)


Bm (Bm/D)
Slo pienso mi cario
             
                  Em (Em/G)              
Come te aoro
              
                                        F#7              
La verdad que yo te quiero
              
               Bm
Aia aiaa

Bm (Bm/D)
Come nadie que se aprende
              
                   Em (Em/G)              
Sin tu amor
              
                                        F#7              
La verdad que yo te quiero

               Bm
Aia aiaa

Chords: Bm: x24432 / 799777 Em: x22453 / x79987 Em/G: x25451 F#7: 244352 / 242352 Bm/D: 254432 Bm7: x24235 / x24232 Bm7add9: 797779 *Note: Tonino plays the alternate versions of the chords. (Transcribed by Kelly Wing, MN, USA)