El Mauro El Mauro
El Mauro

(Capo on 4 - notes and chords are relative to nut, not capo)

(intro:)

Bbm
--------------------------------------------------------------
6-h-4-------------------------------------------------------
--------6--8--h--6--h--4--6--h--4--------------4--6--8-
--------------------------------------8--6--8----------------
--------------------------------------------------------------
--------------------------------------------------------------

-------------------------------------------
6-h-4------------------------------------
---------6--8--h--6--h--4--6--h--4--
----------------------------------------8
-----------------------------------------
-----------------------------------------

G#m
--------------------------------------------------------------------------
--------------------------------------------------------------------------
8--h--6--h--4--6--h--4-----------------------------------------4--6-
------------------------------8--9--s--8--p--6--h--8--6-----8--------
---------------------------------------------------------------------------
--------------------------------------------------------------------------

Bb7
-------------------------------------------
-------------------------------------------
---8--8---8--p--7------8--8---8--p--7-
9--------------------9--------------------
-------------------------------------------
-------------------------------------------

(repeat intro)

                        D#m
Sabe lo que queremos

                 C#
Pero tenemos


Sabe lo que queremos

                G#m
Pero tenemos


Salud y amor

                              B        Bb7
Y la libertad s—lo prefiero

                        D#m
Sabe lo que queremos

            C#  (with fill 1)
Que lo tenemos


Sabe lo que queremos

               G#m
S’ lo prefiero


Amor y el amor

                            B          Bb7
Y libertad si yo los quiero

(chorus):

                                 F#
Ay vengo del Mauro

                C#            G#m(7)
Del Mauro del Mauro

Bbm7
Vengo vengo del Mauro

      G#m7
Del Mauro

Bbm7
Vengo vengo del Mauro

G#m(7)           Bb7
Del Mauro del Mauro

(repeat chorus)

(intro)

Y tendr‡s tu recompensa gitano
Por el Se–or de los cielos
Porque el amor no se apaga
Entre lo malo y lo bueno

(repeat verse 2)

(repeat chorus 3x)

Chords:

CAPO ON 4

Bbm:   688666
G#m:   466444
Bb7:   686796
D#m:  x68876
C#m:   x46664
B:  799877
F#:   x44676 / x98676
G#m7:   464444

FILL 1:

4-4-4-6-7-9-9-9-h-7-7-7-h-6-6-6-p-4-4-4-------------4----------
---------------------------------------------7-p-6-h-7---7-p-6-7-
-------------------------------------------------------------------
-------------------------------------------------------------------
-------------------------------------------------------------------
-------------------------------------------------------------------

FILL 2:

0-0-0-0---0--0--0--0--0-----------------
---------7--7--7--6--6--6-h-7-p-6-h-7--
------------------------------------------
------------------------------------------
------------------------------------------
------------------------------------------

(Transcribed by Kelly Wing, MN, USA)