DJOBI DJOBA
(Capo on 3.  Tuning seems to be 1/2 step lower.)

Intro:
                                                                                       Dm
-------------------------------------------------------------------------------------
--------5--h--6--p--5--h--6--p--5--------------5--h--6--p--5--h--6--p--5
5--7----------------------------------------5--7-----------------------------------
--------------------------------------------------------------------------------------
--------------------------------------------------------------------------------------
-------------------------------------------------------------------------------------- 

                 Gm                                                        C7
--------------------------------------------5--5--5--h--6------------
6--6--6------------------------------------------------------------8--
-----------7------------------------------------------------------------
-------------------------------------------------------------------------
-------------------------------------------------------------------------
-------------------------------------------------------------------------

F

         Dm      
Ay nio

                                        Am
Yo te encuentro solito por la calle

                           Gm
Yo me siento enamorado

                  C7                F
Yo me siento ay mi tesoro.

Amaj7     Amaj7                                    Am
Djobi, Djoba cada da yo te quiero ms,

                                              Gm
Djobi, Djoba cada da yo te quiero ms,

                        C7                  F
Djobi, Djoba cada da yo te quiero ms.


CHORDS: F: 5x3565 Dm: x57765 Gm: 355333 Am: 5775555 Amaj7: 653333 (Transcribed by Kelly Wing, MN, USA)