A TU VERA
(Capo on 7)

(Lyrics are VERY inexact)

Intro:

--x--10-10--x-------x--9--9--x------x--8--8--x----x--7--7
--x--8---8---x-------x--8--8--x------x--8--8--x----x--8--8
--x--9---9---x-------x--9--9--x------x--9--9--x----x--9--9
-----9---9---------------9--9-------------9--9-----------9--9
7-------------------7-----------------7---------------7---------
------------------------------------------------------------------

(repeat)

----x---7---7---x-------x---7---7---x
----x---7---7---x-------x---7---7---x
----x---8---8---x-------x---8---8---x
----x---9---9---x-------x---9---9---x
----x---9---9---x-------x---9---9---x
7---x---7---7---x---7--x---7---7---x

(repeat)

Em
A tu vera.

                                     D
Siempre a la verita tuya, a tu vera.

                                   C
Siempre la verita tuya.

                             B7
Ay que me muero de pena.


Em
A tu vera.

                                     D
Siempre a la verita tuya, a tu vera. 

                                 C
Siempre la verita tuya.

				B7		     Em
A que yo me muero de pena a li a li a a li a

Em			    D
A li a li a a li a li a a li a li a a li a li a

C			    B7
A li a li a a li a li a a li a li a a li a li a


CHORDS: Em: x79987 / 022000 D: 10 12 12 11 10 10 / xx0232 / 554x3x C: 8 10 10 9 8 9 / 332010 B7: x21202 / 797877 This song requires you play a strong RUMBA style, with full mutes on the xs in the riffs. (Music transcribed by Kelly Wing, MN, USA)