AMOR, AMOR
Capo on 3

Intro:

F
---5--------------------------------5--------------
---6-------8-------6--------8-----6--------------
---5-------5-------5--------5---------------------
3------3-------3-------3--------------------------
----------------------------------------------------
----------------------------------------------------

Dm
----5-----------------------------------5----------
----6--------8--------6--------8------6-----------
----7--------5--------5--------5------7-----------
-------------7--------7--------7-------------------
5-------5--------5--------5------------------------
-----------------------------------------------------

Bb
----5---------------------------------------5------
----6--------8---------6----------8-------6------
----3--------3---------3----------3-------3-------
-------------3---------3----------3---------------
----------------------------------------------------
6-------6---------6---------6---------------------

C7
3--3--3--3--3--3--5--5--5--5--5--3-------------
5--5--5--5--5--5--5--5--5--5--5--5------------
3--3--3--3--3--3--3--3--3--3--3--3------------
5--5--5--5--5--5--5--5--5--5--5--5------------
3--3--3--3--3--3--3--3--3--3--3--3------------
----------------------------------------------------

(repeat)

                     Bb
Yo me recuerdo


Ya un día

Am
Que te vaya a encontrar

                                 Gm
Eras solita por la calle

                              C7
Tú sólo me esperabas.
      
       Bb
Amor amor amor amor       

        C7
Amor amor amor amor

       Bb
Amor amor amor

                     C7
De aquella noche


              Bb
Decía a la gente 

                            Am
Quiero que viva conmigo.

       Gm
Estoy naciendo para vivir

                                            C7
Pero me encuentro sin nada.


CHORDS: F: xx3565 / x87565 Dm: x57765 Bb: 68876 / 6x3765 C7: x35353 / x35355 Am: 57755 Gm: 355333 (Music any lyrics transcribed by Kelly Wing, MN, USA)