ALLEGRIA
Capo on 2


A/Amaj7
4-----5------4------3------4-------5----
5-----5------5------5------5-------5----
3-----3------3------3------3-------3----
-------------------------------------------
-------------------------------------------
5-----5------5------5------5-------5-----

F#m and F#m7
4-----5------4------3------4------5----
5-----5------5------5------5------5----
3-----3------3------3------3------3----
-------------------------------------------
4----4------4------4------4------4------
2---(2)----(2)----(2)----(2)----(2)----

Bm and B7sus4
4-----5------4------3------4------5----
5-----5------5------5------5------5----
3-----3------3------3------3------3----
4-----4------4------4------4------4-----
2----(2)----(2)----(2)----(2)----(2)----
-------------------------------------------

E7
5----4----5----4----5--4---------------
3----3----3----3----3--3---------------
4----4----4----4----4--4---------------
3----3----3----3----3--3---------------
------------------------------------------
------------------------------------------

A and Amaj7 / / /
F#m / / / 
Bm / / /
E7 / / /

CHORDS: A: 577655 / 542225 Amaj7: 542222 / 5x2224 F#m7: 244252 F#m: 244222 Bm: x24432 B7sus4: x24252 E7: xx2434 (Music transcribed by Kelly Wing, MN, USA)